ISO-10303-21;
HEADER;
/* Generated by software containing ST-Developer
 * from STEP Tools, Inc. (www.steptools.com) 
 */
/* OPTION: using custom renumber hook */

FILE_DESCRIPTION(
/* description */ ('STEP AP242',
'CAx-IF Rec.Pracs.---Representation and Presentation of Product Manufa
cturing Information (PMI)---4.0---2014-10-13',
'CAx-IF Rec.Pracs.---3D Tessellated Geometry---0.4---2014-09-14','2;1'),

/* implementation_level */ '2;1');

FILE_NAME(
/* name */ '658448b695c19012d04d875a',
/* time_stamp */ '2023-12-21T14:16:22Z',
/* author */ (''),
/* organization */ (''),
/* preprocessor_version */ 'ST-DEVELOPER v19.4',
/* originating_system */ '  ',
/* authorisation */ '  ');

FILE_SCHEMA (('AP242_MANAGED_MODEL_BASED_3D_ENGINEERING_MIM_LF { 1 0 10303 442 1 1 4 }'));
ENDSEC;

DATA;
#10=GEOMETRICALLY_BOUNDED_WIREFRAME_SHAPE_REPRESENTATION('',(#47),#354);
#11=GEOMETRICALLY_BOUNDED_WIREFRAME_SHAPE_REPRESENTATION('',(#48),#355);
#12=GEOMETRICALLY_BOUNDED_WIREFRAME_SHAPE_REPRESENTATION('',(#49),#356);
#13=GEOMETRICALLY_BOUNDED_WIREFRAME_SHAPE_REPRESENTATION('',(#50),#357);
#14=GEOMETRICALLY_BOUNDED_WIREFRAME_SHAPE_REPRESENTATION('',(#51),#358);
#15=CURVE_STYLE('',#26,POSITIVE_LENGTH_MEASURE(0.352777777777778),#25);
#16=CURVE_STYLE('',#27,POSITIVE_LENGTH_MEASURE(0.352777777777778),#201);
#17=CURVE_STYLE('',#28,POSITIVE_LENGTH_MEASURE(0.352777777777778),#25);
#18=CURVE_STYLE('',#29,POSITIVE_LENGTH_MEASURE(0.352777777777778),#201);
#19=CURVE_STYLE('',#30,POSITIVE_LENGTH_MEASURE(0.352777777777778),#25);
#20=CURVE_STYLE('',#31,POSITIVE_LENGTH_MEASURE(0.352777777777778),#201);
#21=CURVE_STYLE('',#32,POSITIVE_LENGTH_MEASURE(0.352777777777778),#25);
#22=CURVE_STYLE('',#33,POSITIVE_LENGTH_MEASURE(0.352777777777778),#201);
#23=CURVE_STYLE('',#34,POSITIVE_LENGTH_MEASURE(0.352777777777778),#25);
#24=CURVE_STYLE('',#35,POSITIVE_LENGTH_MEASURE(0.352777777777778),#201);
#25=COLOUR_RGB('',0.2039215686275,0.6274509803922,0.9372549019608);
#26=DRAUGHTING_PRE_DEFINED_CURVE_FONT('continuous');
#27=DRAUGHTING_PRE_DEFINED_CURVE_FONT('continuous');
#28=DRAUGHTING_PRE_DEFINED_CURVE_FONT('continuous');
#29=DRAUGHTING_PRE_DEFINED_CURVE_FONT('continuous');
#30=DRAUGHTING_PRE_DEFINED_CURVE_FONT('continuous');
#31=DRAUGHTING_PRE_DEFINED_CURVE_FONT('continuous');
#32=DRAUGHTING_PRE_DEFINED_CURVE_FONT('continuous');
#33=DRAUGHTING_PRE_DEFINED_CURVE_FONT('continuous');
#34=DRAUGHTING_PRE_DEFINED_CURVE_FONT('continuous');
#35=DRAUGHTING_PRE_DEFINED_CURVE_FONT('continuous');
#36=TRIMMED_CURVE('',#41,(PARAMETER_VALUE(0.)),(PARAMETER_VALUE(0.05)),
 .T.,.PARAMETER.);
#37=TRIMMED_CURVE('',#118,(PARAMETER_VALUE(0.)),(PARAMETER_VALUE(1.5707963267949)),
 .T.,.PARAMETER.);
#38=TRIMMED_CURVE('',#42,(PARAMETER_VALUE(0.)),(PARAMETER_VALUE(0.125)),
 .T.,.PARAMETER.);
#39=TRIMMED_CURVE('',#119,(PARAMETER_VALUE(0.)),(PARAMETER_VALUE(1.5707963267949)),
 .T.,.PARAMETER.);
#40=TRIMMED_CURVE('',#43,(PARAMETER_VALUE(0.)),(PARAMETER_VALUE(0.05)),
 .T.,.PARAMETER.);
#41=LINE('',#338,#44);
#42=LINE('',#342,#45);
#43=LINE('',#346,#46);
#44=VECTOR('',#290,1.);
#45=VECTOR('',#297,1.);
#46=VECTOR('',#304,1.);
#47=GEOMETRIC_CURVE_SET('',(#36));
#48=GEOMETRIC_CURVE_SET('',(#37));
#49=GEOMETRIC_CURVE_SET('',(#38));
#50=GEOMETRIC_CURVE_SET('',(#39));
#51=GEOMETRIC_CURVE_SET('',(#40));
#52=SHAPE_REPRESENTATION_RELATIONSHIP('','',#209,#58);
#53=SHAPE_REPRESENTATION_RELATIONSHIP('','',#210,#10);
#54=SHAPE_REPRESENTATION_RELATIONSHIP('','',#211,#11);
#55=SHAPE_REPRESENTATION_RELATIONSHIP('','',#212,#12);
#56=SHAPE_REPRESENTATION_RELATIONSHIP('','',#213,#13);
#57=SHAPE_REPRESENTATION_RELATIONSHIP('','',#214,#14);
#58=ADVANCED_BREP_SHAPE_REPRESENTATION('',(#202),#353);
#59=TOROIDAL_SURFACE('',#220,0.035,0.005);
#60=TOROIDAL_SURFACE('',#222,0.07075657894737,0.05450657894737);
#61=TOROIDAL_SURFACE('',#224,0.0225,0.01625);
#62=TOROIDAL_SURFACE('',#228,0.0225,0.01625);
#63=TOROIDAL_SURFACE('',#230,0.07075657894737,0.05450657894737);
#64=TOROIDAL_SURFACE('',#232,0.035,0.005);
#65=CYLINDRICAL_SURFACE('',#218,0.04);
#66=CYLINDRICAL_SURFACE('',#226,0.01625);
#67=CYLINDRICAL_SURFACE('',#234,0.04);
#68=ORIENTED_EDGE('',*,*,#88,.T.);
#69=ORIENTED_EDGE('',*,*,#88,.F.);
#70=ORIENTED_EDGE('',*,*,#89,.T.);
#71=ORIENTED_EDGE('',*,*,#90,.T.);
#72=ORIENTED_EDGE('',*,*,#89,.F.);
#73=ORIENTED_EDGE('',*,*,#90,.F.);
#74=ORIENTED_EDGE('',*,*,#91,.F.);
#75=ORIENTED_EDGE('',*,*,#91,.T.);
#76=ORIENTED_EDGE('',*,*,#92,.T.);
#77=ORIENTED_EDGE('',*,*,#92,.F.);
#78=ORIENTED_EDGE('',*,*,#93,.T.);
#79=ORIENTED_EDGE('',*,*,#93,.F.);
#80=ORIENTED_EDGE('',*,*,#94,.T.);
#81=ORIENTED_EDGE('',*,*,#94,.F.);
#82=ORIENTED_EDGE('',*,*,#95,.T.);
#83=ORIENTED_EDGE('',*,*,#96,.T.);
#84=ORIENTED_EDGE('',*,*,#95,.F.);
#85=ORIENTED_EDGE('',*,*,#96,.F.);
#86=ORIENTED_EDGE('',*,*,#97,.T.);
#87=ORIENTED_EDGE('',*,*,#97,.F.);
#88=EDGE_CURVE('',#98,#98,#108,.T.);
#89=EDGE_CURVE('',#99,#99,#109,.T.);
#90=EDGE_CURVE('',#100,#100,#110,.T.);
#91=EDGE_CURVE('',#101,#101,#111,.T.);
#92=EDGE_CURVE('',#102,#102,#112,.T.);
#93=EDGE_CURVE('',#103,#103,#113,.T.);
#94=EDGE_CURVE('',#104,#104,#114,.T.);
#95=EDGE_CURVE('',#105,#105,#115,.T.);
#96=EDGE_CURVE('',#106,#106,#116,.T.);
#97=EDGE_CURVE('',#107,#107,#117,.T.);
#98=VERTEX_POINT('',#308);
#99=VERTEX_POINT('',#311);
#100=VERTEX_POINT('',#314);
#101=VERTEX_POINT('',#317);
#102=VERTEX_POINT('',#320);
#103=VERTEX_POINT('',#323);
#104=VERTEX_POINT('',#326);
#105=VERTEX_POINT('',#329);
#106=VERTEX_POINT('',#332);
#107=VERTEX_POINT('',#335);
#108=CIRCLE('',#217,0.04);
#109=CIRCLE('',#219,0.04);
#110=CIRCLE('',#221,0.03800442233278);
#111=CIRCLE('',#223,0.01625);
#112=CIRCLE('',#225,0.01625);
#113=CIRCLE('',#227,0.01625);
#114=CIRCLE('',#229,0.01625);
#115=CIRCLE('',#231,0.03800442233278);
#116=CIRCLE('',#233,0.04);
#117=CIRCLE('',#235,0.04);
#118=CIRCLE('',#239,0.0225);
#119=CIRCLE('',#242,0.0225);
#120=EDGE_LOOP('',(#68));
#121=EDGE_LOOP('',(#69));
#122=EDGE_LOOP('',(#70));
#123=EDGE_LOOP('',(#71));
#124=EDGE_LOOP('',(#72));
#125=EDGE_LOOP('',(#73));
#126=EDGE_LOOP('',(#74));
#127=EDGE_LOOP('',(#75));
#128=EDGE_LOOP('',(#76));
#129=EDGE_LOOP('',(#77));
#130=EDGE_LOOP('',(#78));
#131=EDGE_LOOP('',(#79));
#132=EDGE_LOOP('',(#80));
#133=EDGE_LOOP('',(#81));
#134=EDGE_LOOP('',(#82));
#135=EDGE_LOOP('',(#83));
#136=EDGE_LOOP('',(#84));
#137=EDGE_LOOP('',(#85));
#138=EDGE_LOOP('',(#86));
#139=EDGE_LOOP('',(#87));
#140=FACE_BOUND('',#120,.T.);
#141=FACE_BOUND('',#121,.T.);
#142=FACE_BOUND('',#122,.T.);
#143=FACE_BOUND('',#123,.T.);
#144=FACE_BOUND('',#124,.T.);
#145=FACE_BOUND('',#125,.T.);
#146=FACE_BOUND('',#126,.T.);
#147=FACE_BOUND('',#127,.T.);
#148=FACE_BOUND('',#128,.T.);
#149=FACE_BOUND('',#129,.T.);
#150=FACE_BOUND('',#130,.T.);
#151=FACE_BOUND('',#131,.T.);
#152=FACE_BOUND('',#132,.T.);
#153=FACE_BOUND('',#133,.T.);
#154=FACE_BOUND('',#134,.T.);
#155=FACE_BOUND('',#135,.T.);
#156=FACE_BOUND('',#136,.T.);
#157=FACE_BOUND('',#137,.T.);
#158=FACE_BOUND('',#138,.T.);
#159=FACE_BOUND('',#139,.T.);
#160=PLANE('',#216);
#161=PLANE('',#236);
#162=ADVANCED_FACE('',(#140),#160,.F.);
#163=ADVANCED_FACE('',(#141,#142),#65,.T.);
#164=ADVANCED_FACE('',(#143,#144),#59,.T.);
#165=ADVANCED_FACE('',(#145,#146),#60,.F.);
#166=ADVANCED_FACE('',(#147,#148),#61,.T.);
#167=ADVANCED_FACE('',(#149,#150),#66,.T.);
#168=ADVANCED_FACE('',(#151,#152),#62,.T.);
#169=ADVANCED_FACE('',(#153,#154),#63,.F.);
#170=ADVANCED_FACE('',(#155,#156),#64,.T.);
#171=ADVANCED_FACE('',(#157,#158),#67,.T.);
#172=ADVANCED_FACE('',(#159),#161,.F.);
#173=CLOSED_SHELL('',(#162,#163,#164,#165,#166,#167,#168,#169,#170,#171,
#172));
#174=STYLED_ITEM('',(#185),#202);
#175=STYLED_ITEM('',(#186),#36);
#176=STYLED_ITEM('',(#187),#36);
#177=STYLED_ITEM('',(#188),#37);
#178=STYLED_ITEM('',(#189),#37);
#179=STYLED_ITEM('',(#190),#38);
#180=STYLED_ITEM('',(#191),#38);
#181=STYLED_ITEM('',(#192),#39);
#182=STYLED_ITEM('',(#193),#39);
#183=STYLED_ITEM('',(#194),#40);
#184=STYLED_ITEM('',(#195),#40);
#185=PRESENTATION_STYLE_ASSIGNMENT((#196));
#186=PRESENTATION_STYLE_ASSIGNMENT((#15));
#187=PRESENTATION_STYLE_ASSIGNMENT((#16));
#188=PRESENTATION_STYLE_ASSIGNMENT((#17));
#189=PRESENTATION_STYLE_ASSIGNMENT((#18));
#190=PRESENTATION_STYLE_ASSIGNMENT((#19));
#191=PRESENTATION_STYLE_ASSIGNMENT((#20));
#192=PRESENTATION_STYLE_ASSIGNMENT((#21));
#193=PRESENTATION_STYLE_ASSIGNMENT((#22));
#194=PRESENTATION_STYLE_ASSIGNMENT((#23));
#195=PRESENTATION_STYLE_ASSIGNMENT((#24));
#196=SURFACE_STYLE_USAGE(.BOTH.,#197);
#197=SURFACE_SIDE_STYLE('',(#198));
#198=SURFACE_STYLE_FILL_AREA(#199);
#199=FILL_AREA_STYLE('',(#200));
#200=FILL_AREA_STYLE_COLOUR('',#201);
#201=DRAUGHTING_PRE_DEFINED_COLOUR('black');
#202=MANIFOLD_SOLID_BREP('3DPPUB1',#173);
#203=SHAPE_DEFINITION_REPRESENTATION(#383,#209);
#204=SHAPE_DEFINITION_REPRESENTATION(#384,#210);
#205=SHAPE_DEFINITION_REPRESENTATION(#385,#211);
#206=SHAPE_DEFINITION_REPRESENTATION(#386,#212);
#207=SHAPE_DEFINITION_REPRESENTATION(#387,#213);
#208=SHAPE_DEFINITION_REPRESENTATION(#388,#214);
#209=SHAPE_REPRESENTATION('3DPPUB1',(#215),#353);
#210=SHAPE_REPRESENTATION('3DPPUB1',(#237),#354);
#211=SHAPE_REPRESENTATION('3DPPUB1',(#238),#355);
#212=SHAPE_REPRESENTATION('3DPPUB1',(#240),#356);
#213=SHAPE_REPRESENTATION('3DPPUB1',(#241),#357);
#214=SHAPE_REPRESENTATION('3DPPUB1',(#243),#358);
#215=AXIS2_PLACEMENT_3D('',#305,#244,#245);
#216=AXIS2_PLACEMENT_3D('',#306,#246,#247);
#217=AXIS2_PLACEMENT_3D('',#307,#248,#249);
#218=AXIS2_PLACEMENT_3D('',#309,#250,#251);
#219=AXIS2_PLACEMENT_3D('',#310,#252,#253);
#220=AXIS2_PLACEMENT_3D('',#312,#254,#255);
#221=AXIS2_PLACEMENT_3D('',#313,#256,#257);
#222=AXIS2_PLACEMENT_3D('',#315,#258,#259);
#223=AXIS2_PLACEMENT_3D('',#316,#260,#261);
#224=AXIS2_PLACEMENT_3D('',#318,#262,#263);
#225=AXIS2_PLACEMENT_3D('',#319,#264,#265);
#226=AXIS2_PLACEMENT_3D('',#321,#266,#267);
#227=AXIS2_PLACEMENT_3D('',#322,#268,#269);
#228=AXIS2_PLACEMENT_3D('',#324,#270,#271);
#229=AXIS2_PLACEMENT_3D('',#325,#272,#273);
#230=AXIS2_PLACEMENT_3D('',#327,#274,#275);
#231=AXIS2_PLACEMENT_3D('',#328,#276,#277);
#232=AXIS2_PLACEMENT_3D('',#330,#278,#279);
#233=AXIS2_PLACEMENT_3D('',#331,#280,#281);
#234=AXIS2_PLACEMENT_3D('',#333,#282,#283);
#235=AXIS2_PLACEMENT_3D('',#334,#284,#285);
#236=AXIS2_PLACEMENT_3D('',#336,#286,#287);
#237=AXIS2_PLACEMENT_3D('',#337,#288,#289);
#238=AXIS2_PLACEMENT_3D('',#339,#291,#292);
#239=AXIS2_PLACEMENT_3D('',#340,#293,#294);
#240=AXIS2_PLACEMENT_3D('',#341,#295,#296);
#241=AXIS2_PLACEMENT_3D('',#343,#298,#299);
#242=AXIS2_PLACEMENT_3D('',#344,#300,#301);
#243=AXIS2_PLACEMENT_3D('',#345,#302,#303);
#244=DIRECTION('',(0.,0.,1.));
#245=DIRECTION('',(1.,0.,0.));
#246=DIRECTION('',(0.,1.,0.));
#247=DIRECTION('',(-1.,0.,0.));
#248=DIRECTION('',(0.,-1.,0.));
#249=DIRECTION('',(0.,0.,1.));
#250=DIRECTION('',(0.,1.,0.));
#251=DIRECTION('',(1.,0.,0.));
#252=DIRECTION('',(0.,-1.,0.));
#253=DIRECTION('',(-1.,0.,0.));
#254=DIRECTION('',(0.,1.,0.));
#255=DIRECTION('',(-0.999947547387229,0.,0.0102421908918203));
#256=DIRECTION('',(0.,-1.,0.));
#257=DIRECTION('',(-1.,0.,0.));
#258=DIRECTION('',(0.,1.,0.));
#259=DIRECTION('',(1.,0.,0.));
#260=DIRECTION('',(0.,1.,0.));
#261=DIRECTION('',(1.,0.,0.));
#262=DIRECTION('',(0.,0.,1.));
#263=DIRECTION('',(0.,-1.,0.));
#264=DIRECTION('',(-1.,0.,0.));
#265=DIRECTION('',(0.,-1.,0.));
#266=DIRECTION('',(-1.,0.,0.));
#267=DIRECTION('',(0.,-1.,0.));
#268=DIRECTION('',(-1.,0.,0.));
#269=DIRECTION('',(0.,1.,0.));
#270=DIRECTION('',(0.,0.,1.));
#271=DIRECTION('',(-1.,0.,0.));
#272=DIRECTION('',(0.,1.,0.));
#273=DIRECTION('',(-1.,0.,0.));
#274=DIRECTION('',(0.,1.,0.));
#275=DIRECTION('',(1.,0.,0.));
#276=DIRECTION('',(0.,1.,0.));
#277=DIRECTION('',(-1.,0.,0.));
#278=DIRECTION('',(0.,1.,0.));
#279=DIRECTION('',(-0.999943265877717,0.,-0.0106519963295502));
#280=DIRECTION('',(0.,1.,0.));
#281=DIRECTION('',(-1.,0.,0.));
#282=DIRECTION('',(0.,1.,0.));
#283=DIRECTION('',(1.,0.,0.));
#284=DIRECTION('',(0.,1.,0.));
#285=DIRECTION('',(1.,0.,0.));
#286=DIRECTION('',(0.,1.,0.));
#287=DIRECTION('',(-1.,0.,0.));
#288=DIRECTION('',(0.,0.,1.));
#289=DIRECTION('',(1.,0.,0.));
#290=DIRECTION('',(0.,1.,0.));
#291=DIRECTION('',(0.,0.,1.));
#292=DIRECTION('',(1.,0.,0.));
#293=DIRECTION('',(0.,0.,1.));
#294=DIRECTION('',(1.,0.,0.));
#295=DIRECTION('',(0.,0.,1.));
#296=DIRECTION('',(1.,0.,0.));
#297=DIRECTION('',(-1.,0.,0.));
#298=DIRECTION('',(0.,0.,1.));
#299=DIRECTION('',(1.,0.,0.));
#300=DIRECTION('',(0.,0.,1.));
#301=DIRECTION('',(0.,1.,0.));
#302=DIRECTION('',(0.,0.,1.));
#303=DIRECTION('',(1.,0.,0.));
#304=DIRECTION('',(0.,-1.,0.));
#305=CARTESIAN_POINT('',(0.,0.,0.));
#306=CARTESIAN_POINT('',(0.085,0.,0.));
#307=CARTESIAN_POINT('',(-0.085,0.,0.));
#308=CARTESIAN_POINT('',(-0.085,0.,0.04));
#309=CARTESIAN_POINT('',(-0.085,-0.0025,0.));
#310=CARTESIAN_POINT('',(-0.085,0.002434256023899,0.));
#311=CARTESIAN_POINT('',(-0.125,0.002434256023899,0.));
#312=CARTESIAN_POINT('',(-0.085,0.002434256023899,0.));
#313=CARTESIAN_POINT('',(-0.085,0.00643093545141,0.));
#314=CARTESIAN_POINT('',(-0.12300442233278,0.00643093545141,0.));
#315=CARTESIAN_POINT('',(-0.085,0.05,0.));
#316=CARTESIAN_POINT('',(-0.085,0.05,0.));
#317=CARTESIAN_POINT('',(-0.06875,0.05,0.));
#318=CARTESIAN_POINT('',(-0.0625,0.05,0.));
#319=CARTESIAN_POINT('',(-0.0625,0.0725,0.));
#320=CARTESIAN_POINT('',(-0.0625,0.05625,0.));
#321=CARTESIAN_POINT('',(0.0625,0.0725,0.));
#322=CARTESIAN_POINT('',(0.0625,0.0725,0.));
#323=CARTESIAN_POINT('',(0.0625,0.08875,0.));
#324=CARTESIAN_POINT('',(0.0625,0.05,0.));
#325=CARTESIAN_POINT('',(0.085,0.05,0.));
#326=CARTESIAN_POINT('',(0.06875,0.05,0.));
#327=CARTESIAN_POINT('',(0.085,0.05,0.));
#328=CARTESIAN_POINT('',(0.085,0.00643093545141,0.));
#329=CARTESIAN_POINT('',(0.04699557766722,0.00643093545141,0.));
#330=CARTESIAN_POINT('',(0.085,0.002434256023899,0.));
#331=CARTESIAN_POINT('',(0.085,0.002434256023899,0.));
#332=CARTESIAN_POINT('',(0.045,0.002434256023899,0.));
#333=CARTESIAN_POINT('',(0.085,-0.0025,0.));
#334=CARTESIAN_POINT('',(0.085,0.,0.));
#335=CARTESIAN_POINT('',(0.125,0.,0.));
#336=CARTESIAN_POINT('',(0.085,0.,0.));
#337=CARTESIAN_POINT('',(0.,0.,0.));
#338=CARTESIAN_POINT('',(0.085,-1.040949779275E-17,0.));
#339=CARTESIAN_POINT('',(0.,0.,0.));
#340=CARTESIAN_POINT('',(0.0625,0.05,0.));
#341=CARTESIAN_POINT('',(0.,0.,0.));
#342=CARTESIAN_POINT('',(0.0625,0.0725,0.));
#343=CARTESIAN_POINT('',(0.,0.,0.));
#344=CARTESIAN_POINT('',(-0.0625,0.05,0.));
#345=CARTESIAN_POINT('',(0.,0.,0.));
#346=CARTESIAN_POINT('',(-0.085,0.05,0.));
#347=MECHANICAL_DESIGN_GEOMETRIC_PRESENTATION_REPRESENTATION('',(#174),
#353);
#348=MECHANICAL_DESIGN_GEOMETRIC_PRESENTATION_REPRESENTATION('',(#175,#176),
#354);
#349=MECHANICAL_DESIGN_GEOMETRIC_PRESENTATION_REPRESENTATION('',(#177,#178),
#355);
#350=MECHANICAL_DESIGN_GEOMETRIC_PRESENTATION_REPRESENTATION('',(#179,#180),
#356);
#351=MECHANICAL_DESIGN_GEOMETRIC_PRESENTATION_REPRESENTATION('',(#181,#182),
#357);
#352=MECHANICAL_DESIGN_GEOMETRIC_PRESENTATION_REPRESENTATION('',(#183,#184),
#358);
#353=(
GEOMETRIC_REPRESENTATION_CONTEXT(3)
GLOBAL_UNCERTAINTY_ASSIGNED_CONTEXT((#359))
GLOBAL_UNIT_ASSIGNED_CONTEXT((#377,#371,#365))
REPRESENTATION_CONTEXT('3DPPUB1','TOP_LEVEL_ASSEMBLY_PART')
);
#354=(
GEOMETRIC_REPRESENTATION_CONTEXT(3)
GLOBAL_UNCERTAINTY_ASSIGNED_CONTEXT((#360))
GLOBAL_UNIT_ASSIGNED_CONTEXT((#378,#372,#366))
REPRESENTATION_CONTEXT('3DPPUB1','TOP_LEVEL_ASSEMBLY_PART')
);
#355=(
GEOMETRIC_REPRESENTATION_CONTEXT(3)
GLOBAL_UNCERTAINTY_ASSIGNED_CONTEXT((#361))
GLOBAL_UNIT_ASSIGNED_CONTEXT((#379,#373,#367))
REPRESENTATION_CONTEXT('3DPPUB1','TOP_LEVEL_ASSEMBLY_PART')
);
#356=(
GEOMETRIC_REPRESENTATION_CONTEXT(3)
GLOBAL_UNCERTAINTY_ASSIGNED_CONTEXT((#362))
GLOBAL_UNIT_ASSIGNED_CONTEXT((#380,#374,#368))
REPRESENTATION_CONTEXT('3DPPUB1','TOP_LEVEL_ASSEMBLY_PART')
);
#357=(
GEOMETRIC_REPRESENTATION_CONTEXT(3)
GLOBAL_UNCERTAINTY_ASSIGNED_CONTEXT((#363))
GLOBAL_UNIT_ASSIGNED_CONTEXT((#381,#375,#369))
REPRESENTATION_CONTEXT('3DPPUB1','TOP_LEVEL_ASSEMBLY_PART')
);
#358=(
GEOMETRIC_REPRESENTATION_CONTEXT(3)
GLOBAL_UNCERTAINTY_ASSIGNED_CONTEXT((#364))
GLOBAL_UNIT_ASSIGNED_CONTEXT((#382,#376,#370))
REPRESENTATION_CONTEXT('3DPPUB1','TOP_LEVEL_ASSEMBLY_PART')
);
#359=UNCERTAINTY_MEASURE_WITH_UNIT(LENGTH_MEASURE(5.E-6),#377,
'DISTANCE_ACCURACY_VALUE','Maximum Tolerance applied to model');
#360=UNCERTAINTY_MEASURE_WITH_UNIT(LENGTH_MEASURE(5.E-6),#378,
'DISTANCE_ACCURACY_VALUE','Maximum Tolerance applied to model');
#361=UNCERTAINTY_MEASURE_WITH_UNIT(LENGTH_MEASURE(5.E-6),#379,
'DISTANCE_ACCURACY_VALUE','Maximum Tolerance applied to model');
#362=UNCERTAINTY_MEASURE_WITH_UNIT(LENGTH_MEASURE(5.E-6),#380,
'DISTANCE_ACCURACY_VALUE','Maximum Tolerance applied to model');
#363=UNCERTAINTY_MEASURE_WITH_UNIT(LENGTH_MEASURE(5.E-6),#381,
'DISTANCE_ACCURACY_VALUE','Maximum Tolerance applied to model');
#364=UNCERTAINTY_MEASURE_WITH_UNIT(LENGTH_MEASURE(5.E-6),#382,
'DISTANCE_ACCURACY_VALUE','Maximum Tolerance applied to model');
#365=(
NAMED_UNIT(*)
SI_UNIT($,.STERADIAN.)
SOLID_ANGLE_UNIT()
);
#366=(
NAMED_UNIT(*)
SI_UNIT($,.STERADIAN.)
SOLID_ANGLE_UNIT()
);
#367=(
NAMED_UNIT(*)
SI_UNIT($,.STERADIAN.)
SOLID_ANGLE_UNIT()
);
#368=(
NAMED_UNIT(*)
SI_UNIT($,.STERADIAN.)
SOLID_ANGLE_UNIT()
);
#369=(
NAMED_UNIT(*)
SI_UNIT($,.STERADIAN.)
SOLID_ANGLE_UNIT()
);
#370=(
NAMED_UNIT(*)
SI_UNIT($,.STERADIAN.)
SOLID_ANGLE_UNIT()
);
#371=(
NAMED_UNIT(*)
PLANE_ANGLE_UNIT()
SI_UNIT($,.RADIAN.)
);
#372=(
NAMED_UNIT(*)
PLANE_ANGLE_UNIT()
SI_UNIT($,.RADIAN.)
);
#373=(
NAMED_UNIT(*)
PLANE_ANGLE_UNIT()
SI_UNIT($,.RADIAN.)
);
#374=(
NAMED_UNIT(*)
PLANE_ANGLE_UNIT()
SI_UNIT($,.RADIAN.)
);
#375=(
NAMED_UNIT(*)
PLANE_ANGLE_UNIT()
SI_UNIT($,.RADIAN.)
);
#376=(
NAMED_UNIT(*)
PLANE_ANGLE_UNIT()
SI_UNIT($,.RADIAN.)
);
#377=(
LENGTH_UNIT()
NAMED_UNIT(*)
SI_UNIT($,.METRE.)
);
#378=(
LENGTH_UNIT()
NAMED_UNIT(*)
SI_UNIT($,.METRE.)
);
#379=(
LENGTH_UNIT()
NAMED_UNIT(*)
SI_UNIT($,.METRE.)
);
#380=(
LENGTH_UNIT()
NAMED_UNIT(*)
SI_UNIT($,.METRE.)
);
#381=(
LENGTH_UNIT()
NAMED_UNIT(*)
SI_UNIT($,.METRE.)
);
#382=(
LENGTH_UNIT()
NAMED_UNIT(*)
SI_UNIT($,.METRE.)
);
#383=PRODUCT_DEFINITION_SHAPE('','',#389);
#384=PRODUCT_DEFINITION_SHAPE('','',#390);
#385=PRODUCT_DEFINITION_SHAPE('','',#391);
#386=PRODUCT_DEFINITION_SHAPE('','',#392);
#387=PRODUCT_DEFINITION_SHAPE('','',#393);
#388=PRODUCT_DEFINITION_SHAPE('','',#394);
#389=PRODUCT_DEFINITION('','',#401,#395);
#390=PRODUCT_DEFINITION('','',#402,#396);
#391=PRODUCT_DEFINITION('','',#403,#397);
#392=PRODUCT_DEFINITION('','',#404,#398);
#393=PRODUCT_DEFINITION('','',#405,#399);
#394=PRODUCT_DEFINITION('','',#406,#400);
#395=PRODUCT_DEFINITION_CONTEXT('',#437,'design');
#396=PRODUCT_DEFINITION_CONTEXT('',#438,'design');
#397=PRODUCT_DEFINITION_CONTEXT('',#439,'design');
#398=PRODUCT_DEFINITION_CONTEXT('',#440,'design');
#399=PRODUCT_DEFINITION_CONTEXT('',#441,'design');
#400=PRODUCT_DEFINITION_CONTEXT('',#442,'design');
#401=PRODUCT_DEFINITION_FORMATION_WITH_SPECIFIED_SOURCE('','',#413,
 .NOT_KNOWN.);
#402=PRODUCT_DEFINITION_FORMATION_WITH_SPECIFIED_SOURCE('','',#414,
 .NOT_KNOWN.);
#403=PRODUCT_DEFINITION_FORMATION_WITH_SPECIFIED_SOURCE('','',#415,
 .NOT_KNOWN.);
#404=PRODUCT_DEFINITION_FORMATION_WITH_SPECIFIED_SOURCE('','',#416,
 .NOT_KNOWN.);
#405=PRODUCT_DEFINITION_FORMATION_WITH_SPECIFIED_SOURCE('','',#417,
 .NOT_KNOWN.);
#406=PRODUCT_DEFINITION_FORMATION_WITH_SPECIFIED_SOURCE('','',#418,
 .NOT_KNOWN.);
#407=PRODUCT_RELATED_PRODUCT_CATEGORY('','',(#413));
#408=PRODUCT_RELATED_PRODUCT_CATEGORY('','',(#414));
#409=PRODUCT_RELATED_PRODUCT_CATEGORY('','',(#415));
#410=PRODUCT_RELATED_PRODUCT_CATEGORY('','',(#416));
#411=PRODUCT_RELATED_PRODUCT_CATEGORY('','',(#417));
#412=PRODUCT_RELATED_PRODUCT_CATEGORY('','',(#418));
#413=PRODUCT('3DPPUB1','3DPPUB1','3DPPUB1',(#425));
#414=PRODUCT('3DPPUB1','3DPPUB1','3DPPUB1',(#426));
#415=PRODUCT('3DPPUB1','3DPPUB1','3DPPUB1',(#427));
#416=PRODUCT('3DPPUB1','3DPPUB1','3DPPUB1',(#428));
#417=PRODUCT('3DPPUB1','3DPPUB1','3DPPUB1',(#429));
#418=PRODUCT('3DPPUB1','3DPPUB1','3DPPUB1',(#430));
#419=PRODUCT_CATEGORY('','');
#420=PRODUCT_CATEGORY('','');
#421=PRODUCT_CATEGORY('','');
#422=PRODUCT_CATEGORY('','');
#423=PRODUCT_CATEGORY('','');
#424=PRODUCT_CATEGORY('','');
#425=PRODUCT_CONTEXT('',#437,'mechanical');
#426=PRODUCT_CONTEXT('',#438,'mechanical');
#427=PRODUCT_CONTEXT('',#439,'mechanical');
#428=PRODUCT_CONTEXT('',#440,'mechanical');
#429=PRODUCT_CONTEXT('',#441,'mechanical');
#430=PRODUCT_CONTEXT('',#442,'mechanical');
#431=APPLICATION_PROTOCOL_DEFINITION('international standard',
'ap242_managed_model_based_3d_engineering',2011,#437);
#432=APPLICATION_PROTOCOL_DEFINITION('international standard',
'ap242_managed_model_based_3d_engineering',2011,#438);
#433=APPLICATION_PROTOCOL_DEFINITION('international standard',
'ap242_managed_model_based_3d_engineering',2011,#439);
#434=APPLICATION_PROTOCOL_DEFINITION('international standard',
'ap242_managed_model_based_3d_engineering',2011,#440);
#435=APPLICATION_PROTOCOL_DEFINITION('international standard',
'ap242_managed_model_based_3d_engineering',2011,#441);
#436=APPLICATION_PROTOCOL_DEFINITION('international standard',
'ap242_managed_model_based_3d_engineering',2011,#442);
#437=APPLICATION_CONTEXT('managed model based 3d engineering');
#438=APPLICATION_CONTEXT('managed model based 3d engineering');
#439=APPLICATION_CONTEXT('managed model based 3d engineering');
#440=APPLICATION_CONTEXT('managed model based 3d engineering');
#441=APPLICATION_CONTEXT('managed model based 3d engineering');
#442=APPLICATION_CONTEXT('managed model based 3d engineering');
ENDSEC;
END-ISO-10303-21;
